Shove (Acoustic Demo) tabs

Learn how to play AVA tracks and help others

Shove (Acoustic Demo) tabs

by tyler182 on Tue Dec 23, 2014, 9:19pm

I was asked over at 182online awhile ago if I could tab out the Shove demo, which can be heard in this video:



So, I did! Here are the tabs, and below I'll include a link of myself playing it so you know I did it right ;)

The rhythm guitar is the same two power chords, with the strumming pattern going up up, down down, up up, down down, up down, up down:

e--------------------------------------------------------------------------------
B-------------------------------------------------------------------------------
G---7-7-7-7-7-7-7-7-7-7-7-7---9-9-9-9-9-9-9-9-9-9-9-9-----
D---7-7-7-7-7-7-7-7-7-7-7-7---9-9-9-9-9-9-9-9-9-9-9-9-----
A---5-5-5-5-5-5-5-5-5-5-5-5---7-7-7-7-7-7-7-7-7-7-7-7-----
E--------------------------------------------------------------------------------

The lead part goes like this, I believe he uses a sweeping sort of method while playing it:

e---------------------------------------------------------------------------
B---------------------------------------------------------------------------
G---9---11---7---11---9---9---7---9---11---7---6---7---9-----
D--------------------------------------------------------------------------
A--------------------------------------------------------------------------
E--------------------------------------------------------------------------

e---------------------------------------------------------------------------
B--------------------------------------------------------------------------
G---9---11---7---11---9---9---7---9---11---7---6---7---9-----
D--------------------------------------------------------------------------
A--------------------------------------------------------------------------
E---------------------------------------------------------------------------

e----------------------------------------------------------------------------
B----------------------------------------------------------------------------
G---9---11---7---12---11---11---9---7---9---7---6---7---9----
D----------------------------------------------------------------------------
A----------------------------------------------------------------------------
E----------------------------------------------------------------------------

e-----------------------------------------------------------------------------
B----------------------------------------------------------------------------
G---9---11---7---12---11---11---9---7---9---7---6---7---9----
D---------------------------------------------------------------------------
A---------------------------------------------------------------------------
E---------------------------------------------------------------------------




https://soundcloud.com/tyler-anderson-11/shove-demo-cover-tabs-included-in-description




Enjoy!

I never wanted to coast, always wanted to be an anomaly.

Image
Sig by Elevator

Image
User avatar
tyler182
Member
Member
 
Posts: 3843
Location: Indiana
Name: Tyler
Age: 25
Gender: Male
Times you've seen AVA: 1
Reputation point: 236


Re: Shove (Acoustic Demo) tabs

by PandaSkank on Wed Dec 24, 2014, 7:38am

You are a god.
User avatar
PandaSkank
Member
Member
 
Posts: 49
Name: Joe
Age: 19
Gender: Male
Favourite Song: too many to choose from
Favourite Album: too many to choose from
Times you've seen AVA: 1
Interests: Guitar, gaming, my band.
More: http://
Reputation point: 5


Re: Shove (Acoustic Demo) tabs

by Giammy on Wed Dec 24, 2014, 6:54pm

Nice one Tyler. I don't have my guitar with me but I think picking the open D string between those notes in the lead part would make it sound fuller. Try!

Image

Follow The AVA Movement for AVA and To The Stars updates!
Facebook: facebook.com/theavamovement
Instagram: instagram.com/theavamovement
Twitter: twitter.com/theavamovement
User avatar
Giammy
Moderator
Moderator
 
Posts: 4518
Location: Italy
Name: Gianmarco
Age: 23
Gender: Male
Favorite Artists: AVA, Muse, Alkaline Trio, Sum 41...
Favourite Song: A Little's Enough
Times you've seen AVA: 0
Interests: Civil engineering, UAP research, music
More: http://instagram.com/gianmarcopetrucci
Reputation point: 135


Re: Shove (Acoustic Demo) tabs

by tyler182 on Sun Dec 28, 2014, 8:39pm

Sorry I haven't gotten around to trying out your idea Giammy. I met up with my mom in Memphis after Christmas and just got back home. We went to Beale Street and Graceland, it was a lot of fun. I miss my mommy :'(

I never wanted to coast, always wanted to be an anomaly.

Image
Sig by Elevator

Image
User avatar
tyler182
Member
Member
 
Posts: 3843
Location: Indiana
Name: Tyler
Age: 25
Gender: Male
Times you've seen AVA: 1
Reputation point: 236


Return to Your AVA Guitar Tabs, Tips and Setups

Who is online

Users browsing this forum: No registered users and 1 guest