Boxcar Racer- There is

Learn how to play AVA tracks and help others

Boxcar Racer- There is

by AVA_Healed_Me on Sun Oct 11, 2009, 2:53am

There is- Standard tuning (EADGbe)
Intro-
e ---------------------------------------------------------------------------------------------------------------
b ---------------------------------------------------------------------------------------------------------------
G -- 8 ----------6----------4----------6----------3------------------------------------------------------------
D -------(9x)-------(9x-------(9x)--------(5x)-----(5x)------------------------------------------------------
A ---6 ----------4----------2----------4----------1------------------------------------------------------------
E ---------------------------------------------------------------------------------------------------------------

Verse-
e ---------------------------------------------------------------------------------------------------------------
b ---------------------------------------------------------------------------------------------------------------
G --------------------------------------------------------------------------------------------------------------
D ---4---(10x)------4--(10x)---------------------------------------------------------------------------------
A ---2---------------1----------6--(10x)------2---(10x------------------------------------------------------
E -------------------------------4--------------0--------------------------------------------------------------
AVA_Healed_Me
Member
Member
 
Posts: 3
Name: Austin
Age: 16
Gender: Male
Favourite Song: The War
Favourite Album: We Don't Need To Whisper
Times you've seen AVA: 0
Interests: Music
More: http://
Reputation point: 0


the rest of it is like this

by AVA_Healed_Me on Sun Oct 11, 2009, 3:02am

- Sorry didnt put the number of strumming on this one but im sure you can figure it out
Chorus- the verse is also played with this
e ----------------------------------------------------------------------------------------------------------------
b ------0--------0----2---0-------------------------------------------------------------------------------------
G -- -------4----------------------------------------------------------------------------------------------------
D ---------------------------------------------------------------------------------------------------------------
A ---------------------------------------------------------------------------------------------------------------
E ---------------------------------------------------------------------------------------------------------------

Bridge-
e ---------------------------------------------------------------------------------------------------------------
b ---------------------------------------------------------------------------------------------------------------
G -- -8------9------8-----9---------9-----8----6--------------------------------------------------------------
D -------------------------------4------------------------------------------------------------------------------
A ----6------7------6-----7---------7-----6----4--------------------------------------------------------------
E -------------------------------6------------------------------------------------------------------------------
AVA_Healed_Me
Member
Member
 
Posts: 3
Name: Austin
Age: 16
Gender: Male
Favourite Song: The War
Favourite Album: We Don't Need To Whisper
Times you've seen AVA: 0
Interests: Music
More: http://
Reputation point: 0


Re: Boxcar Racer- There is

by Spaceman on Sun Oct 11, 2009, 10:30am

This is completely wrong.

Image

Like me on Facebook : facebook.com/captainsoftheskymusic
Follow me on Twitter : @captainravio

Follow me on Instagram : @captainsofthesky
User avatar
Spaceman
Member
Member
 
Posts: 6681
Location: Kingston, ON
Name: Eric
Age: 25
Gender: Male
Times you've seen AVA: 1
Reputation point: 70


Re: Boxcar Racer- There is

by starscape on Sun Oct 11, 2009, 12:44pm

Alright so i just came up with these tabs myself they should be pretty accurate, I wasn't sure how to get the rhythm down and arrange it properly cause i have to go to lunch lol but give it a try

Intro 2x
E--------------------------------------------------------------------
B--------------------------------------------------------------------
G--8--8-8--8-8--8-8--8-8-8-8-8--6--6-6--6-6--6-6--6-6-6-6-6-
D--------------------------------------------------------------------
A--6--6-6--6-6--6-6--6-6-6-6-6--4--4-4--4-4--4-4--4-4-4-4-4-
E--7--7-7--7-7--7-7--7-7-7-7-7--2--2-2--2-2--2-2--2-2-2-2-2-

E--------------------------------------------------------------------
B--------------------------------------------------------------------
G--4--4-4--4-4--4-4--4-4-4-4-4--6--6-6--4-3--3-3--3-3-3-3-3-
D--------------------------------------------------------------------
A--2--2-2--2-2--2-2--2-2-2-2-2--4--4-4--2-1--1-1--1-1-1-1-1-
E--0--0-0--0-0--0-0--0-0-0-0-0--2--2-2--2-2--2-2--2-2-2-2-2-

Verse 1 4x
E--------------------------------------------------------------------
B--------------------------------------------------------------------
G--4--4-4--4-4--4-4--4-4-4-4-4--4--4-4--4-4--4-4--4-4-4-4-4-
D--4--4-4--4-4--4-4--4-4-4-4-4--4--4-4--4-4--4-4--4-4-4-4-4-
A--2--2-2--2-2--2-2--2-2-2-2-2------------------------------------
E---------------------------------2--2-2--2-2--2-2--2-2-2-2-2-

E--------------------------------------------------------------------
B--------------------------------------------------------------------
G--4--4-4--4-4--4-4--4-4-4-4-4--4--4-4--4-4--4-4--4-4-4-4-4-
D--4--4-4--4-4--4-4--4-4-4-4-4--2--2-2--2-2--2-2--2-2-2-2-2-
A--------------------------------2--2-2--2-2--2-2--2-2-2-2-2-
E--3--3-3--3-3--3-3--3-3-3-3-3--0--0-0--0-0--0-0--0-0-0-0-0-

Chorus 2x
E--------------------------------------------------------------------
B--------------------------------------------------------------------
G--4--4-4--4-4--4-4--4-4-4-4-4--4--4-4--4-4--4-4--4-4-4-4-4-
D--4--4-4--4-4--4-4--4-4-4-4-4--4--4-4--4-4--4-4--4-4-4-4-4-
A--2--2-2--2-2--2-2--2-2-2-2-2-----------------------------------
E---------------------------------2--2-2--2-2--2-2--2-2-2-2-2-

E--------------------------------------------------------------------
B--------------------------------------------------------------------
G--4--4-4--4-4--4-4--4-4-4-4-4--4--4-4--4-4--4-4--4-4-4-4-4-
D--4--4-4--4-4--4-4--4-4-4-4-4--4--4-4--4-4--4-4--4-4-4-4-4-
A--------------------------------------------------------------------
E--3--3-3--3-3--3-3--3-3-3-3-3--2--2-2--2-2--2-2--2-2-2-2-2-

Intro 2x

Verse2 2x

Chorus 2x

Bridge
E--------------------------------------------------------------------
B--------------------------------------------------------------------
G--8--8-8--8-8--8-8--8-8-8-8-8--9--9-9--9-9--9-9--9-9-9-9-9-
D--------------------------------------------------------------------
A--6--6-6--6-6--6-6--6-6-6-6-6--7--7-7--7-7--7-7--7-7-7-7-7-
E--7--7-7--7-7--7-7--7-7-7-7-7--7--7-7--7-7--7-7--7-7-7-7-7-

E--------------------------------------------------------------------
B--------------------------------------------------------------------
G--8--8-8--8-8--8-8--8-8-8-8-8--9--9-9--9-9--9-9--9-9-9-9-9-
D--------------------------------------------------------------------
A--6--6-6--6-6--6-6--6-6-6-6-6--7--7-7--7-7--7-7--7-7-7-7-7-
E--7--7-7--7-7--7-7--7-7-7-7-7--7--7-7--7-7--7-7--7-7-7-7-7-

E--------------------------------------------------------------------
B--------------------------------------------------------------------
G--8--8-8--8-8--8-8--8-8-8-8-8--9--9-9--9-9--9-9--9-9-9-9-9-
D--------------------------------------------------------------------
A--6--6-6--6-6--6-6--6-6-6-6-6--7--7-7--7-7--7-7--7-7-7-7-7-
E--4--4-4--4-4--4-4--4-4-4-4-4--0--0-0--0-0--0-0--0-0-0-0-0--

E--------------------------------------------------------------------
B--------------------------------------------------------------------
G--8--8-8--8-8--8-8--8-8-8-8-8--6--6-6--6-6--6-6--6-6-6-6-6-
D--------------------------------------------------------------------
A--6--6-6--6-6--6-6--6-6-6-6-6--4--4-4--4-4--4-4--4-4-4-4-4-
E--7--7-7--7-7--7-7--7-7-7-7-7--2--2-2--2-2--2-2--2-2-2-2-2-

Chorus to end

Second guitar for Chorus

E--------------------------------------------------------------------
B----------2------------2-------------2-------------2------------2--
G--4-4-4----4--4-4-4-4---4--4-4-4-4---4--4-4-4-4---4-4-4-4-4---4-
D--------------------------------------------------------------------
A--------------------------------------------------------------------
E--------------------------------------------------------------------

hope that works for you guys

Image
User avatar
starscape
Member
Member
 
Posts: 1384
Location: Toronto, Ontario
Name: Marco
Age: 25
Gender: Male
Favourite Song: Lifeline
Favourite Album: We Don't Need to Whisper
Times you've seen AVA: 6
Interests: Writing/Recording
Reputation point: 65


Re: Boxcar Racer- There is

by Spaceman on Sun Oct 11, 2009, 12:54pm

A little better. But still some stuff needs to be adjusted. I'll be fixing up all the tabs soon and posting them.

Image

Like me on Facebook : facebook.com/captainsoftheskymusic
Follow me on Twitter : @captainravio

Follow me on Instagram : @captainsofthesky
User avatar
Spaceman
Member
Member
 
Posts: 6681
Location: Kingston, ON
Name: Eric
Age: 25
Gender: Male
Times you've seen AVA: 1
Reputation point: 70


Re: Boxcar Racer- There is

by starscape on Sun Oct 11, 2009, 12:57pm

yeah the rhythm and arrangements are pretty unorganized but i think the chords should be spot on, at least it sounds like they are lol but yeah, i love this song, im gunna record it and post it on here pretty soon

Image
User avatar
starscape
Member
Member
 
Posts: 1384
Location: Toronto, Ontario
Name: Marco
Age: 25
Gender: Male
Favourite Song: Lifeline
Favourite Album: We Don't Need to Whisper
Times you've seen AVA: 6
Interests: Writing/Recording
Reputation point: 65


Re: Boxcar Racer- There is

by Spaceman on Sun Oct 11, 2009, 1:52pm

Some chords are off. And the picking in the chorus is off. Timing is unorganized, but you can sound it out by listening.

Image

Like me on Facebook : facebook.com/captainsoftheskymusic
Follow me on Twitter : @captainravio

Follow me on Instagram : @captainsofthesky
User avatar
Spaceman
Member
Member
 
Posts: 6681
Location: Kingston, ON
Name: Eric
Age: 25
Gender: Male
Times you've seen AVA: 1
Reputation point: 70


Re: Boxcar Racer- There is

by slash94 on Sat Jan 02, 2010, 3:21pm

starscape wrote:Alright so i just came up with these tabs myself they should be pretty accurate, I wasn't sure how to get the rhythm down and arrange it properly cause i have to go to lunch lol but give it a try

Intro 2x
E--------------------------------------------------------------------
B--------------------------------------------------------------------
G--8--8-8--8-8--8-8--8-8-8-8-8--6--6-6--6-6--6-6--6-6-6-6-6-
D--------------------------------------------------------------------
A--6--6-6--6-6--6-6--6-6-6-6-6--4--4-4--4-4--4-4--4-4-4-4-4-
E--7--7-7--7-7--7-7--7-7-7-7-7--2--2-2--2-2--2-2--2-2-2-2-2-

E--------------------------------------------------------------------
B--------------------------------------------------------------------
G--4--4-4--4-4--4-4--4-4-4-4-4--6--6-6--4-3--3-3--3-3-3-3-3-
D--------------------------------------------------------------------
A--2--2-2--2-2--2-2--2-2-2-2-2--4--4-4--2-1--1-1--1-1-1-1-1-
E--0--0-0--0-0--0-0--0-0-0-0-0--2--2-2--2-2--2-2--2-2-2-2-2-

Verse 1 4x
E--------------------------------------------------------------------
B--------------------------------------------------------------------
G--4--4-4--4-4--4-4--4-4-4-4-4--4--4-4--4-4--4-4--4-4-4-4-4-
D--4--4-4--4-4--4-4--4-4-4-4-4--4--4-4--4-4--4-4--4-4-4-4-4-
A--2--2-2--2-2--2-2--2-2-2-2-2------------------------------------
E---------------------------------2--2-2--2-2--2-2--2-2-2-2-2-

E--------------------------------------------------------------------
B--------------------------------------------------------------------
G--4--4-4--4-4--4-4--4-4-4-4-4--4--4-4--4-4--4-4--4-4-4-4-4-
D--4--4-4--4-4--4-4--4-4-4-4-4--2--2-2--2-2--2-2--2-2-2-2-2-
A--------------------------------2--2-2--2-2--2-2--2-2-2-2-2-
E--3--3-3--3-3--3-3--3-3-3-3-3--0--0-0--0-0--0-0--0-0-0-0-0-

Chorus 2x
E--------------------------------------------------------------------
B--------------------------------------------------------------------
G--4--4-4--4-4--4-4--4-4-4-4-4--4--4-4--4-4--4-4--4-4-4-4-4-
D--4--4-4--4-4--4-4--4-4-4-4-4--4--4-4--4-4--4-4--4-4-4-4-4-
A--2--2-2--2-2--2-2--2-2-2-2-2-----------------------------------
E---------------------------------2--2-2--2-2--2-2--2-2-2-2-2-

E--------------------------------------------------------------------
B--------------------------------------------------------------------
G--4--4-4--4-4--4-4--4-4-4-4-4--4--4-4--4-4--4-4--4-4-4-4-4-
D--4--4-4--4-4--4-4--4-4-4-4-4--4--4-4--4-4--4-4--4-4-4-4-4-
A--------------------------------------------------------------------
E--3--3-3--3-3--3-3--3-3-3-3-3--2--2-2--2-2--2-2--2-2-2-2-2-

Intro 2x

Verse2 2x

Chorus 2x

Bridge
E--------------------------------------------------------------------
B--------------------------------------------------------------------
G--8--8-8--8-8--8-8--8-8-8-8-8--9--9-9--9-9--9-9--9-9-9-9-9-
D--------------------------------------------------------------------
A--6--6-6--6-6--6-6--6-6-6-6-6--7--7-7--7-7--7-7--7-7-7-7-7-
E--7--7-7--7-7--7-7--7-7-7-7-7--7--7-7--7-7--7-7--7-7-7-7-7-

E--------------------------------------------------------------------
B--------------------------------------------------------------------
G--8--8-8--8-8--8-8--8-8-8-8-8--9--9-9--9-9--9-9--9-9-9-9-9-
D--------------------------------------------------------------------
A--6--6-6--6-6--6-6--6-6-6-6-6--7--7-7--7-7--7-7--7-7-7-7-7-
E--7--7-7--7-7--7-7--7-7-7-7-7--7--7-7--7-7--7-7--7-7-7-7-7-

E--------------------------------------------------------------------
B--------------------------------------------------------------------
G--8--8-8--8-8--8-8--8-8-8-8-8--9--9-9--9-9--9-9--9-9-9-9-9-
D--------------------------------------------------------------------
A--6--6-6--6-6--6-6--6-6-6-6-6--7--7-7--7-7--7-7--7-7-7-7-7-
E--4--4-4--4-4--4-4--4-4-4-4-4--0--0-0--0-0--0-0--0-0-0-0-0--

E--------------------------------------------------------------------
B--------------------------------------------------------------------
G--8--8-8--8-8--8-8--8-8-8-8-8--6--6-6--6-6--6-6--6-6-6-6-6-
D--------------------------------------------------------------------
A--6--6-6--6-6--6-6--6-6-6-6-6--4--4-4--4-4--4-4--4-4-4-4-4-
E--7--7-7--7-7--7-7--7-7-7-7-7--2--2-2--2-2--2-2--2-2-2-2-2-

Chorus to end

Second guitar for Chorus

E--------------------------------------------------------------------
B----------2------------2-------------2-------------2------------2--
G--4-4-4----4--4-4-4-4---4--4-4-4-4---4--4-4-4-4---4-4-4-4-4---4-
D--------------------------------------------------------------------
A--------------------------------------------------------------------
E--------------------------------------------------------------------

hope that works for you guys



Man, some of the intro chords are difficult if you don't have as longe fingers as Hendrix, and Tom and David aren't the greatest guitarist in the world, so I think that it's easier....

I think the chorus and verse is (like when Tom plays it in AvA live):
G-4 G-4 G-4 G-4
D-4 D-4 D-4 D-4
A-2 A-- A-- A--
E-- E-2 E-4 E-2

That's also pretty easy to sing while you play that^

I can be completely wrong....

Coca-Cola is an element!
Image
slash94
Member
Member
 
Posts: 198
Location: Denmark
Name: Mathias Laursen
Age: 22
Gender: Male
Favourite Song: Tunnels - Angels And Airwaves
Favourite Album: I-Empire
Times you've seen AVA: 0
Interests: guitar, angels and airwaves, music, soccer
More: https://soundcloud.com/mathias-laursen
Reputation point: 5


Re: Boxcar Racer- There is

by monajani on Mon Aug 26, 2013, 3:50am

its seems a nice forum
great discussion


thanks for sharing

mona
monajani
Member
Member
 
Posts: 1
Age: 23
Gender: Female
Times you've seen AVA: 3
More: http://
Reputation point: 0


Re: Boxcar Racer- There is

by JRRedwing on Tue Aug 27, 2013, 3:20pm

Yeah, but Tom and David are both big guys with big hands(longer reach) so perhaps they can play those chords easily.
User avatar
JRRedwing
Member
Member
 
Posts: 22
Age: 25
Gender: Male
Favourite Song: Sirens
Favourite Album: I-Empire
Times you've seen AVA: 1
More: http://
Reputation point: 0


Return to Your AVA Guitar Tabs, Tips and Setups

Who is online

Users browsing this forum: No registered users and 1 guest