Valkyrie Missile tabs

Learn how to play AVA tracks and help others

Valkyrie Missile tabs

by Singshittyband182 on Wed Feb 18, 2009, 11:18pm

Post Guitar Tabs for Valkyrie Missile here.
The best current Tab will be copied into this main post.
Singshittyband182
Member
Member
 
Posts: 2636
Location: Chicago, IL, United States
Name: Kyle
Age: 24
Gender: Male
Times you've seen AVA: 1
More: Twitter.com/A55VA6
Reputation point: 15


Re: Valkyrie Missile tabs

by LukeFromUranus on Thu Feb 26, 2009, 1:01pm

This is a mix of 3 tabs modified by me.
Tell me how it sounds, thanks.
Valkyrie Missile - Angels And Airwaves - We Don't Need To Whisper Album

Guitar#1: Thomas De Longe
Guitar#2: David James Kennedy

| * = palm mute | ~ = let ring | p = pull off | h = hammer on |

0:00 - 1:04
Just a cool opening effects bit

1:11 - 2:15
Guitar 1 (bass tabbed for guitar):

e|--------------------------------------|
B|--------------------------------------|
G|--------------------------------------|
D|---2---2-0h2-2/4----------------------| (10x)
A|-0---0-----------5---5-4-5-4-2/4--2p0-|
E|--------------------------------------|

Around 2:05 - 2:15 (really quiet hard to hear guitar)

e|----------|
B|----------|
G|-----7766-| it plays this decently fast/ up down palm mute
D|-7777-----|
A|----------|
E|----------|
********
2:15 - 2:41 and 3:56 - 4:22 Verse A (2 Bars per Guitar) (x4)
Guitar 1

e|-------------------------------------------------------------------------|
B|-------------------------------------------------------------------------|
G|-------------------------------------------------------------------------|
D|-7~---------------------------------7~-----------------------------------|
A|-x----------------------------------x------------------------------------|
E|-5~---------------------------------5~--5---5----5----5---5----5---------|

Guitar 2

e|-------------------------------------------------------------------------|
B|-------------------------------------------------------------------------|
G|--------------------------------------9--9--7--7--6--6-------------------|
D|7~------------------------------------------------------7--7-----7-------|
A|0~------------------------------------------------------------0----------|
E|-------------------------------------------------------------------------|

Guitar 1

e|-------------------------------------------------------------------------|
B|-------------------------------------------------------------------------|
G|-------------------------------------------------------------------------|
D|-7~---------------------------------7~-----------------------------------|
A|-x----------------------------------x------------------------------------|
E|-5~---------------------------------5~--5---5----5----5---5----5---------|

Guitar 2

e|-------------------------------------------------------------------------|
B|-------------------------------------------------------------------------|
G|-----6--6~--------------------------6--6-------------4~------------------|
D|7~----------7~----------------------------7--7-------------------------7-|
A|0~----------------------------------------------0--0~--------------------|
E|-------------------------------------------------------------------------|

2:42 - 3:31 and 4:23 - 5:12
Guitar 1 verse

e|-----------------------------|
B|-----------------------------|
G|-----------------------------|
D|-7~-------------7~------7~---|
A|-0~-------------0~------0~---|
E|-5~-------------5~------4~---|
"EVERYONE, EVERONE WILL LISTEN...."
Guitar 2 verse

e|-----------------------------|
B|-----------------------------|
G|-66--------------99776-----4-|
D|----77-----------------------|
A|-------0~---------------0~---|
E|-----------------------------|

3:32 - 3:55 and 5:13 - 5:38
Both guitars pre-chorus

e|-----------------------------|
B|-----------------------------|
G|-----------------------------| "IF ONLY YOU'LL HOLD ON....."
D|-7~~~------------------------|
A|-0~~~------------------------|
E|-5~~~------------------------|

5:39 - 6:03
Guitar 1 EPIC OUTRO PART 1

e|-------------------------------------------------------------|
B|-------------------------------------------------------------|
G|----------------------------9--------------------------------|
D|-7~~------7~~------7~~------999999999999999999999999////////-|
A|-0~~------0~~------0~~------777777777777777777777777////////-|
E|-5~~------5~~------5~~------000000000000000000000000////////-|
***********************
5:39 - 6:30
Guitar 2 EPIC OUTRO (with heavy delay)

e|-------------------------|
B|-------------------------|
G|-14--14--14-16-13-13-13--|
D|---14--14----------------|
A|-------------------------|
E|-------------------------|

6:04 - 6:30
Guitar 1 EPIC OUTRO PART 2

e|-------------------------------------------------|-----------------------|
B|-------------------------------------------------|-----------------------|
G|-------------------------------------------------|-----------------------|
D|-12/11--7/9--12/11--11---12/11--7/9--12/11--11-x3|-12/11--7/9--7/9--9----|
A|-x--x---x-x--x--x---x----x--x---x-x--x--x---x----|-x--x---x-x--x-x--x----|
E|-10/9---5/7--10/9---9----10/9---5/7--10/9---9----|-10/9---5/7--5/7--7----|

e|------------------------------|
B|------------------------------|
G|------------------------------|
D|-12/11-7/9--7/9--11--7~~~-----|
A|-x--x--x-x--x-x--x---0~~~-----| "EVERYTHING WE ARE
E|-10/9--5/7--5/7--9---5~~~-----| WE'RE ANGELS AND AIRWAVES"

Guitar 2 ending Notes

e|--------|
b|-15-----|
G|----14~-|
D|--------|
A|--------|
E|--------|

"We told you we came from San Diego but It's wrong, we came from Uranus".
User avatar
LukeFromUranus
Member
Member
 
Posts: 667
Location: Albino, Italy
Name: Luca
Age: 20
Gender: Male
Favourite Song: Good Day, Angels & Airwaves
Favourite Album: We Don't Need To Whisper
Times you've seen AVA: 0
Interests: AVA, music, guitar, streetwear, art
More: modlife.com/
Reputation point: 5


Re: Valkyrie Missile tabs

by Singshittyband182 on Thu Feb 26, 2009, 1:38pm

Good post. Thanks.
I will try these tabs out and see how accurate they are..
They look pretty close.
Singshittyband182
Member
Member
 
Posts: 2636
Location: Chicago, IL, United States
Name: Kyle
Age: 24
Gender: Male
Times you've seen AVA: 1
More: Twitter.com/A55VA6
Reputation point: 15


Re: Valkyrie Missile tabs

by STATiK 182 on Thu Feb 26, 2009, 2:54pm

They look pretty close to me.
I don't have my guitar with me to actually play them, but from looking at them they look good.

Image
STATiK 182
Member
Member
 
Posts: 1015
Name: Tod
Age: 18
Gender: Male
Favourite Song: The Adventure
Favourite Album: Take Off Your Pants And Jacket
Times you've seen AVA: 3
More: modlife.com/
Reputation point: 0


Re: Valkyrie Missile tabs

by Skalor on Thu Feb 26, 2009, 4:41pm

Luca, do you have any tabs for other songs?

Thanks for posting this btw :D

.
Image

Follow The AVA Movement for news updates!
Facebook: facebook.com/theavamovement
Instagram: instagram.com/theavamovement
Twitter: twitter.com/theavamovement
User avatar
Skalor
Administrator
Administrator
 
Posts: 7674
Location: England
Name: Matty
Age: 25
Gender: Male
Favorite Artists: M83, Tycho, Arcade Fire, Jon Hopkins
Favourite Song: The Gift (Live), Open Eye Signal (Jon Hopkins)
Favourite Album: WDNTW, Reflektor, Dive, Immunity
Times you've seen AVA: 4
Interests: Graphic Design, Music, Philosophy
Reputation point: 210


Re: Valkyrie Missile tabs

by AirwavesRunner on Fri Feb 27, 2009, 1:21pm

As SOON as I get internet at home Matty, I will post up some songs. I dont have the time, or internet ability to post them here at school.

Im in the middle of moving, and I havent had home internet in a long while. Should have it soon.


PERFECT Luca!

AirwavesRunner
User avatar
AirwavesRunner
Moderator
Moderator
 
Posts: 2438
Location: Washington DC
Name: Adam
Age: 22
Gender: Male
Favourite Song: Jude Law & a Semester Abroad
Favourite Album: We Don't Need to Whisper
Times you've seen AVA: 2
Interests: Fate is what you make of it
Reputation point: 80


Re: Valkyrie Missile tabs

by Skalor on Fri Feb 27, 2009, 3:10pm

Airwavesrunner wrote:As SOON as I get internet at home Matty, I will post up some songs. I dont have the time, or internet ability to post them here at school.

Im in the middle of moving, and I havent had home internet in a long while. Should have it soon.


PERFECT Luca!

Cool man sounds awesome :)

.
Image

Follow The AVA Movement for news updates!
Facebook: facebook.com/theavamovement
Instagram: instagram.com/theavamovement
Twitter: twitter.com/theavamovement
User avatar
Skalor
Administrator
Administrator
 
Posts: 7674
Location: England
Name: Matty
Age: 25
Gender: Male
Favorite Artists: M83, Tycho, Arcade Fire, Jon Hopkins
Favourite Song: The Gift (Live), Open Eye Signal (Jon Hopkins)
Favourite Album: WDNTW, Reflektor, Dive, Immunity
Times you've seen AVA: 4
Interests: Graphic Design, Music, Philosophy
Reputation point: 210


Re: Valkyrie Missile tabs

by LukeFromUranus on Fri Feb 27, 2009, 4:08pm

Thanksssssssssssssssssssssssssss :D I'll postin' something new later
Stay tuned
LN

"We told you we came from San Diego but It's wrong, we came from Uranus".
User avatar
LukeFromUranus
Member
Member
 
Posts: 667
Location: Albino, Italy
Name: Luca
Age: 20
Gender: Male
Favourite Song: Good Day, Angels & Airwaves
Favourite Album: We Don't Need To Whisper
Times you've seen AVA: 0
Interests: AVA, music, guitar, streetwear, art
More: modlife.com/
Reputation point: 5


Re: Valkyrie Missile tabs

by IAVAIN on Sat Feb 26, 2011, 11:13am

delay times - intro riff - 305 ms
verse - 375 ms
outro / coda - also 305 ms
User avatar
IAVAIN
Member
Member
 
Posts: 1005
Location: Newcastle, England (Geordieland)
Name: Iain
Age: 20
Gender: Male
Favourite Song: Acquiesce - Oasis
Favourite Album: So Long, Astoria-The Ataris/Pennybridge Pioneers-Millencolin
Times you've seen AVA: 0
Interests: XBOXONE Gamertag: BLINKz 182, playing guitar
Reputation point: 30


Return to Your AVA Guitar Tabs, Tips and Setups

Who is online

Users browsing this forum: No registered users and 1 guest