A Little's Enough tabs

Learn how to play AVA tracks and help others

A Little's Enough tabs

by Singshittyband182 on Wed Feb 18, 2009, 11:21pm

Post Guitar Tabs for A Little's Enough here.
The best current Tab will be copied into this main post.
Singshittyband182
Member
Member
 
Posts: 2637
Location: United States
Name: Kyle
Age: 25
Gender: Male
Times you've seen AVA: 1
Reputation point: 15


Re: A Little's Enough tabs

by LukeFromUranus on Tue Mar 03, 2009, 12:50pm

It sounds pretty close...LN
Standard Tuning

( ) = Delayed Notes
x = Palm Muted

Effects 0:00-00:28


Intro Riff " When All Is Said and Done..."
e|--------------------------|--------------------------------|
b|----9-10-----(9)-(10)-----|---9-10----(9)-(10)----(9)-(10)-|
g|--9-------(9)-------------|-9------(9)---------(9)---------|
d|--------------------------|--------------------------------|
a|--------------------------|--------------------------------|
E|--------------------------|--------------------------------|

e|-------------------------------------|---------------------|
b|----10-12-----(10)-(12)----(10)-(12)-|---9-10----(9)-(10)--|
g|--9--------(9)----------(9)----------|-9------(9)----------|
d|-------------------------------------|---------------------|
a|-------------------------------------|---------------------|
E|-------------------------------------|---------------------|

e|----------------------|------------------------------------|
b|----9-10-----(9)-(10)-|---10-12-----(10)-(12)----9-10------|
g|--9-------(9)---------|-9--------(9)-----------9-----------|
d|----------------------|------------------------------------|
a|----------------------|------------------------------------|
E|----------------------|------------------------------------|


Riff 2 All Notes Ring Out "I, I Can Do Anything..."
e|--------------------------|------------------------|
b|--------------------------|------------------------|
g|------2----2------2-----2-|-----2-----2----2-----2-|
d|--------------------------|------------------------|
a|--------------------------|------------------------|
E|--2-2---2-2---2-2---2-2---|-0-0---0-0---0-0---0-0--|
|x2
e|--------------------------|------------------------|
b|--------------------------|------------------------|
g|--------------------------|------------------------|
d|--4-4---------------4-4---|-2-2---------------2-2--|
a|--x-x---------------x-x---|-x-x---------------x-x--|
E|--2-2---------------2-2---|-0-0---------------0-0--|


e|--------------------------|------------------------|
b|--------------------------|------------------------|
g|------2----2------2-----2-|-----2-----2----2-----2-|
d|--------------------------|------------------------|
a|--4-4---4-4---4-4---4-4---|-2-2---2-2---2-2---2-2--|
E|--------------------------|------------------------|
|x2
e|--------------------------|------------------------|
b|--------------------------|------------------------|
g|--------------------------|------------------------|
d|-11-11-------------11-11--|-9-9----------------9-9-|
a|-x--x---------------x-x---|-x-x----------------x-x-|
E|-9--9---------------9-9---|-7-7----------------7-7-|



Guitar Break
e|--------------|-----------|------------|-------------|
b|--------------|-----------|------------|-------------|
g|--------------|-----------|------------|-------------|
d|--------------|-----------|------2-----|-------------|
a|-0--0--0--0---|0--0--2--2-|--0-0----0--|-0--0--2--2--|
E|--5--5--5--5--|-4--4--4--4|-2---2--2--2|--4--4--4--4-|
xx xx xx xx xx xx xx xx xx xx xx xx

e|--------------|-----------|------------|-------------|
b|--------------|-----------|------------|-------------|
g|--------------|-----------|------------|-------------|
d|---------2----|-----------|------2-----|-------------|
a|---0-0-----0--|0--0--2--2-|--0-0----0--|-0--0---2----|
E|-5-----5--5-5-|-4--4--4--4|-2---2--2--2|--2--4--4----|
xx xx xx xx xx xx xx

Verse " Green Trees Were The First Sign..."
e|--------------------------|------------------------|
b|--------------------------|------------------------|
g|------2----2------2-----2-|-----2-----2----2-----2-|
d|--------------------------|------------------------|
a|--------------------------|-0-0---0-0---0-0--0-0---|
E|--2-2---2-2---2-2---2-2---|------------------------|
x2
e|--------------------------|------------------------|
b|--------------------------|------------------------|
g|------2----2-------2----2-|-----2-----2----2-----2-|
d|--------------------------|------------------------|
a|--------------------------|-0-0---0-0---0-0--0-0---|
E|--0-0---0-0---0-0---0-0---|------------------------|


Riff 2 "I, I Can Do Anything..."
e|--------------------------|------------------------|
b|--------------------------|------------------------|
g|------2----2------2-----2-|-----2-----2----2-----2-|
d|--------------------------|------------------------|
a|--------------------------|------------------------|
E|--2-2---2-2---2-2---2-2---|-0-0---0-0---0-0---0-0--|
|x2
e|--------------------------|------------------------|
b|--------------------------|------------------------|
g|--------------------------|------------------------|
d|--4-4---------------4-4---|-2-2---------------2-2--|
a|--x-x---------------x-x---|-x-x---------------x-x--|
E|--2-2---------------2-2---|-0-0---------------0-0--|


e|--------------------------|------------------------|
b|--------------------------|------------------------|
g|------2----2------2-----2-|-----2-----2----2-----2-|
d|--------------------------|------------------------|
a|--4-4---4-4---4-4---4-4---|-2-2---2-2---2-2---2-2--|
E|--------------------------|------------------------|
|x2
e|--------------------------|------------------------|
b|--------------------------|------------------------|
g|--------------------------|------------------------|
d|-11-11-------------11-11--|-9-9----------------9-9-|
a|-x--x---------------x-x---|-x-x----------------x-x-|
E|-9--9---------------9-9---|-7-7----------------7-7-|

Chorus "I'm Sorry I Have To Say It..."
e|-------------|-------------|-------------|--------|----------|
b|-------------|-------------|-------------|--------|----------|
g|-------------|-------------|-------------|--------|----------|
d|-7-7--7--7-7-|-7-7--7--7-7-|-4-4--4--4-4-|-2-2--2-|-12-12--12|x2
a|-x-x--x--x-x-|-x-x--x--x-x-|-x-x--x--x-x-|-x-x--x-|-x--x---x-|
E|-5-5--5--5-5-|-4-4--4--4-4-|-2-2--2--2-2-|-0-0--0-|-10-10--10|

e|---|
b|---|
g|---|
d|-7-|Let Ring
a|-x-|
E|-5-|

Both Guitars Clean W/ Delay
e|--5---7----9-----4---|
b|-----5--5-----5----5-|
g|---------------------|
d|---------------------|
a|---------------------|
E|---------------------|
|
e|---------------------|
b|---------------------|
g|--9-x-x-x-7--6-6-x-x-|
d|---------------------|
a|---------------------|
E|---------------------|

Outro "Just a Little, Just A Little.."
e|-5-----------|-5-----------|-5-----------|-7----9-|---4------|
b|---5--(5)--5-|---5-(5)-----|---5-(5)-----|---5----|-5--------|
g|-------------|-------------|-------------|--------|----------|
d|-------------|-------------|-------------|--------|----------|
a|-------------|-------------|-------------|--------|----------|
E|-------------|-------------|-------------|--------|----------|

e|-------------|-------------|-------------|--------|----------|
b|-------------|-------------|-------------|--------|----------|
g|-------------|-------------|-------------|--------|----------|
d|-7-7--7--7-7-|-7-7--7--7-7-|-4-4--4--4-4-|-2-2--2-|-12-12--12|x2
a|-x-x--x--x-x-|-x-x--x--x-x-|-x-x--x--x-x-|-x-x--x-|-x--x---x-|
E|-5-5--5--5-5-|-4-4--4--4-4-|-2-2--2--2-2-|-0-0--0-|-10-10--10|

"We told you we came from San Diego but It's wrong, we came from Uranus".
User avatar
LukeFromUranus
Member
Member
 
Posts: 667
Location: Albino, Italy
Name: Luca
Age: 20
Gender: Male
Favourite Song: Good Day, Angels & Airwaves
Favourite Album: We Don't Need To Whisper
Times you've seen AVA: 0
Interests: AVA, music, guitar, streetwear, art
More: modlife.com/
Reputation point: 5


Re: A Little's Enough tabs

by STATiK 182 on Tue Mar 03, 2009, 1:07pm

looks alot like the one on U-G lol, but it does look really close

Image
STATiK 182
Member
Member
 
Posts: 1015
Name: Tod
Age: 18
Gender: Male
Favourite Song: The Adventure
Favourite Album: Take Off Your Pants And Jacket
Times you've seen AVA: 3
More: modlife.com/
Reputation point: 0


Re: A Little's Enough tabs

by AirwavesRunner on Tue Mar 03, 2009, 1:26pm

UG has some really good ones though. Just because its not straight original doesnt mean that its not good.

AirwavesRunner
User avatar
AirwavesRunner
Moderator
Moderator
 
Posts: 2438
Location: Washington DC
Name: Adam
Age: 22
Gender: Male
Favourite Song: Jude Law & a Semester Abroad
Favourite Album: We Don't Need to Whisper
Times you've seen AVA: 2
Interests: Fate is what you make of it
Reputation point: 80


Re: A Little's Enough tabs

by easytarget44 on Tue Mar 03, 2009, 8:38pm

what's the exact delay speed for this song???

Image
User avatar
easytarget44
Member
Member
 
Posts: 692
Location: Mexico
Name: George
Age: 20
Gender: Male
Favourite Song: The Adventure
Favourite Album: We don't need to whisper
Times you've seen AVA: 1
Interests: AVAVAVAVAVAVAVAVAVAVAVA
More: modlife.com/EasyTarget44
Reputation point: 0


Re: A Little's Enough tabs

by Spaceman on Tue Mar 03, 2009, 10:20pm

Yeah please post delay speeds. Telling us there is delay doesn't tell us very much. It's hard to find.

Image

Like me on Facebook : facebook.com/captainsoftheskymusic
Follow me on Twitter : @captainravio

Follow me on Instagram : @captainsofthesky
User avatar
Spaceman
Member
Member
 
Posts: 6681
Location: Kingston, ON
Name: Eric
Age: 25
Gender: Male
Times you've seen AVA: 1
Reputation point: 70


Re: A Little's Enough tabs

by Singshittyband182 on Wed Mar 04, 2009, 8:58am

easytarget44 wrote:what's the exact delay speed for this song???

That's what I've tried to figure out also..
Singshittyband182
Member
Member
 
Posts: 2637
Location: United States
Name: Kyle
Age: 25
Gender: Male
Times you've seen AVA: 1
Reputation point: 15


Re: A Little's Enough tabs

by LukeFromUranus on Wed Mar 04, 2009, 12:04pm

Yeah is from U.G. because is the best. . .sorry guys
I have a pedal with the delay and the echo effect so I think that on this song is better the echo, speed 450 or something like that with high repetition.
I'm so sorry
LN

"We told you we came from San Diego but It's wrong, we came from Uranus".
User avatar
LukeFromUranus
Member
Member
 
Posts: 667
Location: Albino, Italy
Name: Luca
Age: 20
Gender: Male
Favourite Song: Good Day, Angels & Airwaves
Favourite Album: We Don't Need To Whisper
Times you've seen AVA: 0
Interests: AVA, music, guitar, streetwear, art
More: modlife.com/
Reputation point: 5


Re: A Little's Enough tabs

by Spaceman on Wed Mar 04, 2009, 12:33pm

It's either really slow delay, or echo.... I guess you may need a multi effect pedal. Now that I listen to it I don't really hear delay, but rather echo.

Image

Like me on Facebook : facebook.com/captainsoftheskymusic
Follow me on Twitter : @captainravio

Follow me on Instagram : @captainsofthesky
User avatar
Spaceman
Member
Member
 
Posts: 6681
Location: Kingston, ON
Name: Eric
Age: 25
Gender: Male
Times you've seen AVA: 1
Reputation point: 70


Re: A Little's Enough tabs

by STATiK 182 on Wed Mar 04, 2009, 2:12pm

No dude don't be sorry, I was just saying that it looked like the one from U-G, don't be sorry!
It is the best one I've seen anyways, nothing wrong with that!

Image
STATiK 182
Member
Member
 
Posts: 1015
Name: Tod
Age: 18
Gender: Male
Favourite Song: The Adventure
Favourite Album: Take Off Your Pants And Jacket
Times you've seen AVA: 3
More: modlife.com/
Reputation point: 0


Re: A Little's Enough tabs

by easytarget44 on Fri Mar 06, 2009, 6:19pm

it's delay, at least on the bridge

Image
User avatar
easytarget44
Member
Member
 
Posts: 692
Location: Mexico
Name: George
Age: 20
Gender: Male
Favourite Song: The Adventure
Favourite Album: We don't need to whisper
Times you've seen AVA: 1
Interests: AVAVAVAVAVAVAVAVAVAVAVA
More: modlife.com/EasyTarget44
Reputation point: 0


Re: A Little's Enough tabs

by Ike Productions on Thu Sep 03, 2009, 9:33pm

Singshittyband182 wrote:Post Guitar Tabs for A Little's Enough here.
The best current Tab will be copied into this main post.


Anyone have any keyboard tabs?
User avatar
Ike Productions
Member
Member
 
Posts: 2363
Name: Luke
Age: 21
Gender: Male
Favourite Song: All That We Are
Favourite Album: Love Pt II
Times you've seen AVA: 1
Interests: Technology, Music Production, Drums, Cars
Reputation point: 100


Re: A Little's Enough tabs

by GodisAnAstronaut on Thu Sep 03, 2009, 9:58pm

So weird, I was totally looking at this post earlier and was thinkin "wow these are never on the main page" and there it is! O.o

Image
Follow Me on Twatter: http://twitter.com/ThePolisena
User avatar
GodisAnAstronaut
Member
Member
 
Posts: 1339
Location: Michigan
Name: Mike
Age: 27
Gender: Male
Favourite Song: The Gift
Favourite Album: We Don't Need to Whisper
Times you've seen AVA: 3
Reputation point: 25


Re: A Little's Enough tabs

by Spaceman on Fri Sep 04, 2009, 1:41am

The delay speed is half that of the rest of the ava songs.

Image

Like me on Facebook : facebook.com/captainsoftheskymusic
Follow me on Twitter : @captainravio

Follow me on Instagram : @captainsofthesky
User avatar
Spaceman
Member
Member
 
Posts: 6681
Location: Kingston, ON
Name: Eric
Age: 25
Gender: Male
Times you've seen AVA: 1
Reputation point: 70


Re: A Little's Enough tabs

by ALVAYS10791 on Fri Sep 04, 2009, 4:12am

TheColorMike wrote:So weird, I was totally looking at this post earlier and was thinkin "wow these are never on the main page" and there it is! O.o



lol ya i guess no1 ever rly talks on these much but every once in a great while..... :alien:

Image
User avatar
ALVAYS10791
Member
Member
 
Posts: 3666
Location: Portage, IN
Name: Justin
Age: 24
Gender: Male
Favourite Song: Disaster - Blink 182
Favourite Album: MMLP2
Times you've seen AVA: 1
Interests: My wife, my children, music, sports
More: facebook.com/allenstowing; modlife.com/always10791
Reputation point: 90


Re: A Little's Enough tabs

by tjb4233 on Fri Oct 16, 2009, 4:51pm

the delay settings for at least the verses/intro...is around 860mms...have a low feedback around 23%...and that should do it...
tjb4233
Member
Member
 
Posts: 20
Name: TJ
Age: 24
Gender: Male
Times you've seen AVA: 0
More: http://
Reputation point: 0


Re: A Little's Enough tabs

by bronzekneecap90 on Fri Oct 16, 2009, 11:18pm

e|--------------|-----------|------------|-------------|
b|--------------|-----------|------------|-------------|
g|--------------|-----------|------------|-------------|
d|--------------|-----------|-----------|-------------|
a|------0--7--0|--------0--2-0|--------0--4--0| -------0---2---0| X2 (palm mute)
E|-5-5---5--5--|-0-4-4--4--4-|-0-2-2--2--2-|--0-4-4---4---4-- 0|

I sounded it out and it sounds 100% to me
User avatar
bronzekneecap90
Member
Member
 
Posts: 300
Name: Dennis
Age: 20
Gender: Male
Favourite Song: Shove, Flight of Apollo, Moon Atomic, Clever Love
Favourite Album: LOVE
Times you've seen AVA: 0
Interests: Anything AVA related
More: modlife.com/
Reputation point: 0


Re: A Little's Enough tabs

by Giammy on Fri Nov 08, 2013, 6:24pm

Does anyone know the settings for the cool riff during the bridge/final chorus? The one Tom is playing in the Start the Machine unreleased video.
I can play the song but figuring out the delay for that part is killing me!

Image

Follow The AVA Movement for AVA and To The Stars updates!
Facebook: facebook.com/theavamovement
Instagram: instagram.com/theavamovement
Twitter: twitter.com/theavamovement
User avatar
Giammy
Moderator
Moderator
 
Posts: 4518
Location: Italy
Name: Gianmarco
Age: 23
Gender: Male
Favorite Artists: AVA, Muse, Alkaline Trio, Sum 41...
Favourite Song: A Little's Enough
Times you've seen AVA: 0
Interests: Civil engineering, UAP research, music
More: http://instagram.com/gianmarcopetrucci
Reputation point: 135


Return to Your AVA Guitar Tabs, Tips and Setups

Who is online

Users browsing this forum: No registered users and 1 guest