The Gift tabs

Learn how to play AVA tracks and help others

The Gift tabs

by Singshittyband182 on Wed Feb 18, 2009, 11:22pm

Post Guitar Tabs for The Gift here.
The best current Tab will be copied into this main post.
Singshittyband182
Member
Member
 
Posts: 2628
Location: United States
Name: Kyle
Age: 25
Gender: Male
Times you've seen AVA: 1
Reputation point: 15


Re: The Gift tabs

by easytarget44 on Fri Feb 27, 2009, 4:57pm

here's the way I play this song the pre verse sounds kinda off but I can't figure out what David plays on the live version so this is all I have
The Gift (use capo on second fret)

Intro/versee
|------------------------------------------
B|------------------------------------------
G|------------11-11-11-11-13---9-9--8-------
D|-----------9--9--9--9--9---9-9-------9-----
A|-0-0-0-0----------------------------------
E|------------------------------------------
PM.......



Pre-chorus the notes between () are generated by delay

e|-------------------------------------------
B|------------------------------------------
G|--8--(8)----9--(9)----4--(4)---6--(6)---------
D|--x---x-----x----x----x---x----x---x---------
A|--6--(6)----7--(7)----2--(2)---4--(4)---------
E|-------------------------------------------



Chorus (you can find out the strumming listening to the song)

e|-------------------------------
B|-------------------------------
G|11---- 9-----8------9--------
D|-9-----9-----9------9--------
A|-------------------------------
E|-------------------------------





e|---------------------
B|---------------------
G|11---- 9-----------
D|-9-----9-----------
A|--------------------
E|---------------------

Image
User avatar
easytarget44
Member
Member
 
Posts: 691
Location: Mexico
Name: George
Age: 20
Gender: Male
Favourite Song: The Adventure
Favourite Album: We don't need to whisper
Times you've seen AVA: 1
Interests: AVAVAVAVAVAVAVAVAVAVAVA
More: modlife.com/EasyTarget44
Reputation point: 0


Re: The Gift tabs

by sharkfuson on Tue Jul 20, 2010, 11:43am

anyone know what kind of delay to use on this? Ive got a BOSS rp 50 multi effects pedal and cant find the right settings for this song
User avatar
sharkfuson
Member
Member
 
Posts: 291
Gender: Male
Times you've seen AVA: 0
More: http://
Reputation point: 10


Re: The Gift tabs

by mill3733 on Wed Oct 05, 2011, 4:32pm

I modified those tabs a bit but they worked out great! Thanks. :)

Image
User avatar
mill3733
Member
Member
 
Posts: 180
Name: Brian Mills
Age: 20
Gender: Male
Favourite Song: All That We Are
Favourite Album: Siberia - Lights
Times you've seen AVA: 1
Interests: Making Music, Listening to music
More: www.youtube.com/mill3733
Reputation point: 0


Return to Your AVA Guitar Tabs, Tips and Setups

Who is online

Users browsing this forum: No registered users and 1 guest