Call To Arms tabs

Learn how to play AVA tracks and help others

Call To Arms tabs

by Singshittyband182 on Wed Feb 18, 2009, 11:25pm

Post Guitar Tabs for Call To Arms here.
The best current Tab will be copied into this main post.
Singshittyband182
Member
Member
 
Posts: 2637
Location: United States
Name: Kyle
Age: 25
Gender: Male
Times you've seen AVA: 1
Reputation point: 15


Re: Call To Arms tabs

by easytarget44 on Fri Feb 27, 2009, 5:01pm

here's the way I play this songs, I'll be posting more tabs when I get my guitar back right now I don't have it with me T.T

Intro

e|--------------------------------------------------------
b|--------------------------------------------------------
g|------------------------------------------------
d|-----------------------------------------------
a|--11-11-(11)-(11)--7-7-(7)-(7)------------------9-9-(9)-(9)-
E|--0--0—--(0)—-(0)--0-0—(0)—(0)-0000000000000000-0-0—(0)—(0)-
Pm . . . . . . . .

-----------------------------------------------------------
------------------------------------------------------------
------------------------------------------------------------
-----------------------------------------------------------
--7-7-(7)-(7)--------------------------------------------
--0-0—(0)—(0)- 0000000000000000---------------------------
Pm . . . . . . . .


Intro part 2
e|--5------5------4-------4------2------2-------2-----2
b|--------------------------------------------------
g|---------------------------------------------------
d|---------------------------------------------------
a|----------------------------------------------------
E|-------------------------------------------------

Verse
E|---------------------------------
B|---5-5---5-5-5---7-7-7---4-4-----
G|-4-----4-------4-------4---------
D|---------------------------------
A|---------------------------------
E|---------------------------------


Chorus

E|----5----5----5----5----5---5---5---5---5---
B|-7h---7h---7h---7h---7h---5---5---5---5---5-
G|---------------------------------------------------
D|---------------------------------------------------
A|----------------------------------------------------
E|-------------------------------------------------

just set the delay speed near 350mss

Image
User avatar
easytarget44
Member
Member
 
Posts: 692
Location: Mexico
Name: George
Age: 20
Gender: Male
Favourite Song: The Adventure
Favourite Album: We don't need to whisper
Times you've seen AVA: 1
Interests: AVAVAVAVAVAVAVAVAVAVAVA
More: modlife.com/EasyTarget44
Reputation point: 0


Re: Call To Arms tabs

by navajoprophet on Fri Jan 29, 2010, 1:44pm

Anyone know where there might be sheet music for this song or others?
User avatar
navajoprophet
Member
Member
 
Posts: 223
Location: elite school outside of Portland, OR
Name: Mat
Age: 21
Gender: Male
Favourite Song: Cells
Favourite Album: The Servant - The Servant
Times you've seen AVA: 0
Interests: Stained glass, wood working, philosophy
More: http://
Reputation point: -40


Re: Call To Arms tabs

by IAVAIN on Sat Feb 26, 2011, 10:58am

delay speed i think is 347ms - just tested, it's 347
User avatar
IAVAIN
Member
Member
 
Posts: 1005
Location: Newcastle, England (Geordieland)
Name: Iain
Age: 20
Gender: Male
Favourite Song: Acquiesce - Oasis
Favourite Album: So Long, Astoria-The Ataris/Pennybridge Pioneers-Millencolin
Times you've seen AVA: 0
Interests: XBOXONE Gamertag: BLINKz 182, playing guitar
Reputation point: 30


Re: Call To Arms tabs

by Giammy on Sat May 03, 2014, 6:42am

Epic bump!

Need some info on this song, does anyone know if you need a double delay?

I know it has a dotted 8th note delay, but I was thinking it might have another delay effect at the same time (quarter note maybe? kinda like some U2 songs) cause I can't quite get the chorus right and other parts.

Image

Follow The AVA Movement for AVA and To The Stars updates!
Facebook: facebook.com/theavamovement
Instagram: instagram.com/theavamovement
Twitter: twitter.com/theavamovement
User avatar
Giammy
Moderator
Moderator
 
Posts: 4518
Location: Italy
Name: Gianmarco
Age: 23
Gender: Male
Favorite Artists: AVA, Muse, Alkaline Trio, Sum 41...
Favourite Song: A Little's Enough
Times you've seen AVA: 0
Interests: Civil engineering, UAP research, music
More: http://instagram.com/gianmarcopetrucci
Reputation point: 135


Return to Your AVA Guitar Tabs, Tips and Setups

Who is online

Users browsing this forum: No registered users and 1 guest