Sirens tabs

Learn how to play AVA tracks and help others

Sirens tabs

by Singshittyband182 on Wed Feb 18, 2009, 11:26pm

Post Guitar Tabs for Sirens here.
The best current Tab will be copied into this main post.
Singshittyband182
Member
Member
 
Posts: 2637
Location: United States
Name: Kyle
Age: 25
Gender: Male
Times you've seen AVA: 1
Reputation point: 15


Re: Sirens tabs

by easytarget44 on Thu Apr 09, 2009, 5:59pm

you can find the tab on ultimate guitar but none has the cool chorus riff correct, does anyone know how to play it???

Image
User avatar
easytarget44
Member
Member
 
Posts: 692
Location: Mexico
Name: George
Age: 20
Gender: Male
Favourite Song: The Adventure
Favourite Album: We don't need to whisper
Times you've seen AVA: 1
Interests: AVAVAVAVAVAVAVAVAVAVAVA
More: modlife.com/EasyTarget44
Reputation point: 0


Re: Sirens tabs

by Cedric on Mon May 25, 2009, 10:02pm

you can find the tab on ultimate guitar but none has the cool chorus riff correct, does anyone know how to play it???
Yeah I do know how to. I need to buy a camera to film myself playin' it.
Cedric
Member
Member
 
Posts: 32
Name: Cedric
Age: 20
Gender: Male
Favourite Song: Lifeline, A little's enough, The adventure
Favourite Album: We don't need to whisper
Times you've seen AVA: 2
Interests: music, hockey, girls, life in general
Reputation point: 0


Re: Sirens tabs

by Spaceman on Mon May 25, 2009, 10:20pm

Cedric wrote:Yeah I do know how to. I need to buy a camera to film myself playin' it.


This is a tab section... so tab it?

Image

Like me on Facebook : facebook.com/captainsoftheskymusic
Follow me on Twitter : @captainravio

Follow me on Instagram : @captainsofthesky
User avatar
Spaceman
Member
Member
 
Posts: 6681
Location: Kingston, ON
Name: Eric
Age: 25
Gender: Male
Times you've seen AVA: 1
Reputation point: 70


Re: Sirens tabs

by dolfo41brazil on Mon May 25, 2009, 10:58pm

easytarget44 wrote:you can find the tab on ultimate guitar but none has the cool chorus riff correct, does anyone know how to play it???


i was going to say that like this at 1:40
http://www.youtube.com/watch?v=QxV1HRKueL8
tab that plzzzzzzz

Image
dolfo41brazil
Member
Member
 
Posts: 49
Name: rodolfo
Age: 17
Gender: Male
Favourite Song: down
Favourite Album: blink-182
Times you've seen AVA: 0
Interests: soccer
More: modlife.com/
Reputation point: 1


Re: Sirens tabs

by LukeFromUranus on Tue May 26, 2009, 11:37am

I've arranged it and I know how to play it even if's not perfect.
If you give me a few days maybe a week I'll try to tab my version of the song.
LN

"We told you we came from San Diego but It's wrong, we came from Uranus".
User avatar
LukeFromUranus
Member
Member
 
Posts: 667
Location: Albino, Italy
Name: Luca
Age: 20
Gender: Male
Favourite Song: Good Day, Angels & Airwaves
Favourite Album: We Don't Need To Whisper
Times you've seen AVA: 0
Interests: AVA, music, guitar, streetwear, art
More: modlife.com/
Reputation point: 5


Re: Sirens tabs

by Skalor on Tue May 26, 2009, 12:06pm

LukeFromUranus wrote:I've arranged it and I know how to play it even if's not perfect.
If you give me a few days maybe a week I'll try to tab my version of the song.
LN

That would be awesome :)

.
Image

Follow The AVA Movement for news updates!
Facebook: facebook.com/theavamovement
Instagram: instagram.com/theavamovement
Twitter: twitter.com/theavamovement
User avatar
Skalor
Administrator
Administrator
 
Posts: 7674
Location: England
Name: Matty
Age: 25
Gender: Male
Favorite Artists: M83, Tycho, Arcade Fire, Jon Hopkins
Favourite Song: The Gift (Live), Open Eye Signal (Jon Hopkins)
Favourite Album: WDNTW, Reflektor, Dive, Immunity
Times you've seen AVA: 4
Interests: Graphic Design, Music, Philosophy
Reputation point: 210


Re: Sirens tabs

by easytarget44 on Tue May 26, 2009, 4:57pm

LukeFromUranus wrote:I've arranged it and I know how to play it even if's not perfect.
If you give me a few days maybe a week I'll try to tab my version of the song.
LN

please do it

Image
User avatar
easytarget44
Member
Member
 
Posts: 692
Location: Mexico
Name: George
Age: 20
Gender: Male
Favourite Song: The Adventure
Favourite Album: We don't need to whisper
Times you've seen AVA: 1
Interests: AVAVAVAVAVAVAVAVAVAVAVA
More: modlife.com/EasyTarget44
Reputation point: 0


Re: Sirens tabs

by LukeFromUranus on Thu May 28, 2009, 12:16pm

First riff (X 4 I think)

e|--------------------|
B|--------------------|
G|---7-7/7-7/7/9---|
D|---4-4/5-5/7/7---|
A|--------------------|
E|--------------------|


Second Riff

e|----------------------------------------------------------------------------------------|
B|----------------------------------------------------------------------------------------|
G|-----7/6/7---7/6/7--------7/9-9/11-11---7/6/7---7/6/7-------7/9-9/6/7---------|
D|---0-------7-------5-5555---------------0--------7--------555----------------------|
A|----------------------------------------------------------------------------------------|
E|----------------------------------------------------------------------------------------|

I made it very fastly so correct me if it is not right
I hope so because it took me one month to find the right positions and notes.
Maybe times are not correct
But play it before criticize
LN

"We told you we came from San Diego but It's wrong, we came from Uranus".
User avatar
LukeFromUranus
Member
Member
 
Posts: 667
Location: Albino, Italy
Name: Luca
Age: 20
Gender: Male
Favourite Song: Good Day, Angels & Airwaves
Favourite Album: We Don't Need To Whisper
Times you've seen AVA: 0
Interests: AVA, music, guitar, streetwear, art
More: modlife.com/
Reputation point: 5


Re: Sirens tabs

by LukeFromUranus on Thu May 28, 2009, 12:19pm

The D line is a bit on delay. play before the G line with the 7/6/7 then the D7 then the G then the D5 ecc
sorry for the stupid format
LN

"We told you we came from San Diego but It's wrong, we came from Uranus".
User avatar
LukeFromUranus
Member
Member
 
Posts: 667
Location: Albino, Italy
Name: Luca
Age: 20
Gender: Male
Favourite Song: Good Day, Angels & Airwaves
Favourite Album: We Don't Need To Whisper
Times you've seen AVA: 0
Interests: AVA, music, guitar, streetwear, art
More: modlife.com/
Reputation point: 5


Re: Sirens tabs

by Kenji on Sun May 09, 2010, 2:18pm

Intro/Verse

e|-------------------------------------------------------------|
B|------------------------------------------------------7-----|
G|-----9---7---------9---7---------9---7--------7----7------|
D|-----7---7---------7---7---------7---7---------------------| x5
A|--------------------------------------------------------------|
E|--------------------------------------------------------------|

Pre-chorus

e|--------------------------------------------------------------|
B|--------------------------------------------------------------|
G|---11--11-------12--12---------14--14--------------------|
D|---x----x--------x----x----------x----x---------------------|
A|---9----9--------10--10--------12---12--------------------| x4
E|--------------------------------------------------------------|


Chorus

e|-----------------------------------------------------------------------|
B|-----------------------------------------------------------5--7-------|
G|-----7-6-7-6------7-6-7-6-------------------7----------------7----|
D|--0----------7-7------------5---5--5------5-----4-s-5-------------|
A|-------------------------------5--------5-----------------------------| x4
E|----------------------------------------------------------------------|

Bridge (listen carefully for the timing)

e|----------------------------------
B|---------------------------------
G|-14--11--9---7-7-7---9-9-9--
D|-x----x---x---x-x-x---x-x-x--
A|-12--9---7---5-5-5---7-7-7--

e|----------------------------------------------------|
B|----------------------------------------------------|
G|-11-11----7---11--12--11-9---9--11--7--------|
D|-x--x------x---x---x----x--x---x--x---x---------|
A|-9--9------5---9---10---9--7---7--9---5--------| x2


Pretty sure that's correct.
Kenji
Member
Member
 
Posts: 4
Name: Ken Nakama
Age: 16
Gender: Male
Favourite Song: Young London
Favourite Album: I-Empire
Times you've seen AVA: 0
Interests: Guitar & Sports
More: http://www.facebook.com/ken.nakama?ref=profile
Reputation point: 0


Re: Sirens tabs

by ChrisParlamas on Sun May 09, 2010, 3:57pm

This is the chorus I play... it fits well. Unless I'm deaf. lol


e--------------------------------------------------------
B--------------------------------------------------------
G-----7---6h7--2---76h7--0--0---0-7----7-9---11-11
D-00---0----------0----------------4------5------------
A--------------------------------------------------------
E--------------------------------------------------------


e------------------------------------------------------------
B------------------------------------------------------------
G-----7---6h7--2---76h7--0--0---0-7----7-9-------------
D-00---0----------0----------------4------5---------12-12
A------------------------------------------------------------
E------------------------------------------------------------

If it's wrong, sorry...

Image


http://www.facebook.com/bunderthird


FORMERLY HIMYNAMEISCHRIS


Λɴɢᴇʟs & ʌɪʀᴡʌᴠᴇS
User avatar
ChrisParlamas
Member
Member
 
Posts: 1426
Location: Niles, Ohio
Name: Chris Parlamas
Age: 22
Gender: Male
Favourite Song: Mercenaries - Angels & Airwaves
Favourite Album: Sonic Highways - Foo Fighters
Times you've seen AVA: 2
Interests: Creating music, listening to music, and more
More: modlife.com/himynameischris
Reputation point: 40


Re: Sirens tabs

by Acoustick on Tue Oct 15, 2013, 5:14pm

Good deal! Cheers guys.

Image
Image
User avatar
Acoustick
Member
Member
 
Posts: 1
Name: Eric
Age: 20
Gender: Male
Favourite Song: Obvious - Blink 182
Favourite Album: We Dont Need to Whisper - AvA
Times you've seen AVA: 0
Interests: Jamming, Detroit Red Wings, Music
Reputation point: 0


Return to Your AVA Guitar Tabs, Tips and Setups

Who is online

Users browsing this forum: Google [Bot] and 1 guest